ISO-10303-21;
HEADER;
/* Generated by software containing ST-Developer
 * from STEP Tools, Inc. (www.steptools.com) 
 */

FILE_DESCRIPTION(
/* description */ (''),
/* implementation_level */ '2;1');

FILE_NAME(
/* name */ 'SG-412.stp',
/* time_stamp */ '2019-10-07T15:09:05+02:00',
/* author */ (''),
/* organization */ (''),
/* preprocessor_version */ 'ST-DEVELOPER v15.2',
/* originating_system */ 'Autodesk Translator Framework v2.0.0.5431',
/* authorisation */ '');

FILE_SCHEMA (('AUTOMOTIVE_DESIGN { 1 0 10303 214 3 1 1 }'));
ENDSEC;

DATA;
#10=SHAPE_REPRESENTATION_RELATIONSHIP('SRR','None',#324,#11);
#11=ADVANCED_BREP_SHAPE_REPRESENTATION($,(#157),#318);
#12=STYLED_ITEM($,(#332),#157);
#13=LINE($,#302,#21);
#14=LINE($,#304,#22);
#15=LINE($,#305,#23);
#16=LINE($,#308,#24);
#17=LINE($,#310,#25);
#18=LINE($,#311,#26);
#19=LINE($,#313,#27);
#20=LINE($,#314,#28);
#21=VECTOR($,#198,2.04721359549996);
#22=VECTOR($,#199,1.2);
#23=VECTOR($,#200,2.04721359549996);
#24=VECTOR($,#203,2.04721359549996);
#25=VECTOR($,#204,1.2);
#26=VECTOR($,#205,2.04721359549996);
#27=VECTOR($,#208,1.);
#28=VECTOR($,#209,1.);
#29=PLANE($,#169);
#30=PLANE($,#170);
#31=PLANE($,#171);
#32=PLANE($,#172);
#33=PLANE($,#173);
#34=SPHERICAL_SURFACE($,#162,0.9);
#35=FACE_BOUND($,#54,.T.);
#36=FACE_BOUND($,#55,.T.);
#37=FACE_BOUND($,#58,.T.);
#38=FACE_BOUND($,#60,.T.);
#39=FACE_BOUND($,#62,.T.);
#40=FACE_BOUND($,#64,.T.);
#41=B_SPLINE_CURVE_WITH_KNOTS($,3,(#220,#221,#222,#223,#224,#225,#226,#227,
#228,#229,#230,#231,#232,#233,#234,#235),.UNSPECIFIED.,.F.,.F.,(4,2,2,2,
2,2,2,4),(2.51216975132214E-014,0.0517583238523925,0.10351664770476,0.207033295409495,
0.414066590818964,0.579094292333359,0.661608143090557,0.744121993847755),
 .UNSPECIFIED.);
#42=B_SPLINE_CURVE_WITH_KNOTS($,3,(#237,#238,#239,#240,#241,#242,#243,#244,
#245,#246,#247,#248,#249,#250,#251,#252),.UNSPECIFIED.,.F.,.F.,(4,2,2,2,
2,2,2,4),(2.23236598154314,2.31487983230034,2.39739368305754,2.56242138457193,
2.76945467998141,2.87297132768614,2.92472965153851,2.97648797539088),
 .UNSPECIFIED.);
#43=B_SPLINE_CURVE_WITH_KNOTS($,3,(#254,#255,#256,#257,#258,#259,#260,#261,
#262,#263,#264,#265,#266,#267,#268,#269),.UNSPECIFIED.,.F.,.F.,(4,2,2,2,
2,2,2,4),(-1.48824398769543,-1.43648566384306,-1.38472733999069,-1.28121069228596,
-1.0741773968765,-0.909149695362105,-0.826635844604909,-0.744121993847713),
 .UNSPECIFIED.);
#44=B_SPLINE_CURVE_WITH_KNOTS($,3,(#270,#271,#272,#273,#274,#275,#276,#277,
#278,#279,#280,#281,#282,#283,#284,#285),.UNSPECIFIED.,.F.,.F.,(4,2,2,2,
2,2,2,4),(-2.2323659815431,-2.14985213078591,-2.06733828002872,-1.90231057851433,
-1.69527728310488,-1.59176063540015,-1.54000231154779,-1.48824398769543),
 .UNSPECIFIED.);
#45=FACE_OUTER_BOUND($,#53,.T.);
#46=FACE_OUTER_BOUND($,#56,.T.);
#47=FACE_OUTER_BOUND($,#57,.T.);
#48=FACE_OUTER_BOUND($,#59,.T.);
#49=FACE_OUTER_BOUND($,#61,.T.);
#50=FACE_OUTER_BOUND($,#63,.T.);
#51=FACE_OUTER_BOUND($,#65,.T.);
#52=FACE_OUTER_BOUND($,#66,.T.);
#53=EDGE_LOOP($,(#108));
#54=EDGE_LOOP($,(#109,#110,#111,#112));
#55=EDGE_LOOP($,(#113));
#56=EDGE_LOOP($,(#114,#115,#116,#117));
#57=EDGE_LOOP($,(#118,#119,#120,#121));
#58=EDGE_LOOP($,(#122));
#59=EDGE_LOOP($,(#123,#124,#125,#126));
#60=EDGE_LOOP($,(#127));
#61=EDGE_LOOP($,(#128,#129,#130,#131));
#62=EDGE_LOOP($,(#132));
#63=EDGE_LOOP($,(#133,#134,#135,#136));
#64=EDGE_LOOP($,(#137));
#65=EDGE_LOOP($,(#138,#139,#140,#141));
#66=EDGE_LOOP($,(#142,#143,#144,#145));
#67=CIRCLE($,#160,0.405000000000001);
#68=CIRCLE($,#161,0.405000000000001);
#69=CIRCLE($,#163,0.748331477354788);
#70=CIRCLE($,#164,0.670820393249937);
#71=CIRCLE($,#165,0.748331477354788);
#72=CIRCLE($,#166,0.670820393249937);
#73=CIRCLE($,#168,0.4);
#74=VERTEX_POINT($,#216);
#75=VERTEX_POINT($,#218);
#76=VERTEX_POINT($,#219);
#77=VERTEX_POINT($,#236);
#78=VERTEX_POINT($,#253);
#79=VERTEX_POINT($,#286);
#80=VERTEX_POINT($,#289);
#81=VERTEX_POINT($,#290);
#82=VERTEX_POINT($,#292);
#83=VERTEX_POINT($,#294);
#84=VERTEX_POINT($,#298);
#85=VERTEX_POINT($,#301);
#86=VERTEX_POINT($,#303);
#87=VERTEX_POINT($,#307);
#88=VERTEX_POINT($,#309);
#89=EDGE_CURVE($,#74,#74,#67,.T.);
#90=EDGE_CURVE($,#75,#76,#41,.T.);
#91=EDGE_CURVE($,#77,#75,#42,.T.);
#92=EDGE_CURVE($,#78,#77,#43,.T.);
#93=EDGE_CURVE($,#76,#78,#44,.T.);
#94=EDGE_CURVE($,#79,#79,#68,.T.);
#95=EDGE_CURVE($,#80,#81,#69,.T.);
#96=EDGE_CURVE($,#80,#82,#70,.T.);
#97=EDGE_CURVE($,#83,#82,#71,.T.);
#98=EDGE_CURVE($,#83,#81,#72,.T.);
#99=EDGE_CURVE($,#84,#84,#73,.T.);
#100=EDGE_CURVE($,#82,#85,#13,.T.);
#101=EDGE_CURVE($,#86,#85,#14,.T.);
#102=EDGE_CURVE($,#83,#86,#15,.T.);
#103=EDGE_CURVE($,#87,#81,#16,.T.);
#104=EDGE_CURVE($,#87,#88,#17,.T.);
#105=EDGE_CURVE($,#88,#80,#18,.T.);
#106=EDGE_CURVE($,#86,#87,#19,.T.);
#107=EDGE_CURVE($,#85,#88,#20,.T.);
#108=ORIENTED_EDGE($,*,*,#89,.F.);
#109=ORIENTED_EDGE($,*,*,#90,.F.);
#110=ORIENTED_EDGE($,*,*,#91,.F.);
#111=ORIENTED_EDGE($,*,*,#92,.F.);
#112=ORIENTED_EDGE($,*,*,#93,.F.);
#113=ORIENTED_EDGE($,*,*,#94,.T.);
#114=ORIENTED_EDGE($,*,*,#95,.F.);
#115=ORIENTED_EDGE($,*,*,#96,.T.);
#116=ORIENTED_EDGE($,*,*,#97,.F.);
#117=ORIENTED_EDGE($,*,*,#98,.T.);
#118=ORIENTED_EDGE($,*,*,#90,.T.);
#119=ORIENTED_EDGE($,*,*,#93,.T.);
#120=ORIENTED_EDGE($,*,*,#92,.T.);
#121=ORIENTED_EDGE($,*,*,#91,.T.);
#122=ORIENTED_EDGE($,*,*,#99,.T.);
#123=ORIENTED_EDGE($,*,*,#97,.T.);
#124=ORIENTED_EDGE($,*,*,#100,.T.);
#125=ORIENTED_EDGE($,*,*,#101,.F.);
#126=ORIENTED_EDGE($,*,*,#102,.F.);
#127=ORIENTED_EDGE($,*,*,#89,.T.);
#128=ORIENTED_EDGE($,*,*,#95,.T.);
#129=ORIENTED_EDGE($,*,*,#103,.F.);
#130=ORIENTED_EDGE($,*,*,#104,.T.);
#131=ORIENTED_EDGE($,*,*,#105,.T.);
#132=ORIENTED_EDGE($,*,*,#94,.F.);
#133=ORIENTED_EDGE($,*,*,#104,.F.);
#134=ORIENTED_EDGE($,*,*,#106,.F.);
#135=ORIENTED_EDGE($,*,*,#101,.T.);
#136=ORIENTED_EDGE($,*,*,#107,.T.);
#137=ORIENTED_EDGE($,*,*,#99,.F.);
#138=ORIENTED_EDGE($,*,*,#103,.T.);
#139=ORIENTED_EDGE($,*,*,#98,.F.);
#140=ORIENTED_EDGE($,*,*,#102,.T.);
#141=ORIENTED_EDGE($,*,*,#106,.T.);
#142=ORIENTED_EDGE($,*,*,#105,.F.);
#143=ORIENTED_EDGE($,*,*,#107,.F.);
#144=ORIENTED_EDGE($,*,*,#100,.F.);
#145=ORIENTED_EDGE($,*,*,#96,.F.);
#146=CYLINDRICAL_SURFACE($,#159,0.405000000000001);
#147=CYLINDRICAL_SURFACE($,#167,0.4);
#148=ADVANCED_FACE($,(#45,#35,#36),#146,.F.);
#149=ADVANCED_FACE($,(#46),#34,.T.);
#150=ADVANCED_FACE($,(#47,#37),#147,.F.);
#151=ADVANCED_FACE($,(#48,#38),#29,.F.);
#152=ADVANCED_FACE($,(#49,#39),#30,.F.);
#153=ADVANCED_FACE($,(#50,#40),#31,.T.);
#154=ADVANCED_FACE($,(#51),#32,.T.);
#155=ADVANCED_FACE($,(#52),#33,.T.);
#156=CLOSED_SHELL($,(#148,#149,#150,#151,#152,#153,#154,#155));
#157=MANIFOLD_SOLID_BREP('ASM Body',#156);
#158=AXIS2_PLACEMENT_3D('placement',#214,#174,#175);
#159=AXIS2_PLACEMENT_3D($,#215,#176,#177);
#160=AXIS2_PLACEMENT_3D($,#217,#178,#179);
#161=AXIS2_PLACEMENT_3D($,#287,#180,#181);
#162=AXIS2_PLACEMENT_3D($,#288,#182,#183);
#163=AXIS2_PLACEMENT_3D($,#291,#184,#185);
#164=AXIS2_PLACEMENT_3D($,#293,#186,#187);
#165=AXIS2_PLACEMENT_3D($,#295,#188,#189);
#166=AXIS2_PLACEMENT_3D($,#296,#190,#191);
#167=AXIS2_PLACEMENT_3D($,#297,#192,#193);
#168=AXIS2_PLACEMENT_3D($,#299,#194,#195);
#169=AXIS2_PLACEMENT_3D($,#300,#196,#197);
#170=AXIS2_PLACEMENT_3D($,#306,#201,#202);
#171=AXIS2_PLACEMENT_3D($,#312,#206,#207);
#172=AXIS2_PLACEMENT_3D($,#315,#210,#211);
#173=AXIS2_PLACEMENT_3D($,#316,#212,#213);
#174=DIRECTION('axis',(0.,0.,1.));
#175=DIRECTION('refdir',(1.,0.,0.));
#176=DIRECTION('center_axis',(0.,1.12657185192217E-016,1.));
#177=DIRECTION('ref_axis',(0.,1.,-1.12657185192217E-016));
#178=DIRECTION('center_axis',(0.,1.12657185192217E-016,1.));
#179=DIRECTION('ref_axis',(0.,1.,-1.12657185192217E-016));
#180=DIRECTION('center_axis',(0.,1.12657185192217E-016,1.));
#181=DIRECTION('ref_axis',(0.,1.,-1.12657185192217E-016));
#182=DIRECTION('center_axis',(1.,0.,-6.12323399573677E-017));
#183=DIRECTION('ref_axis',(0.,0.,-1.));
#184=DIRECTION('center_axis',(0.,-2.20389905895119E-017,1.));
#185=DIRECTION('ref_axis',(0.,-1.,-2.20389905895119E-017));
#186=DIRECTION('center_axis',(1.,-1.38777878078145E-016,-1.26881740709328E-032));
#187=DIRECTION('ref_axis',(-1.38777878078145E-016,-1.,-3.64414160842908E-015));
#188=DIRECTION('center_axis',(0.,-4.73499484495604E-017,-1.));
#189=DIRECTION('ref_axis',(-1.77635683940025E-015,1.,-4.73499484495604E-017));
#190=DIRECTION('center_axis',(-1.,-1.38777878078145E-016,-1.26881740709328E-032));
#191=DIRECTION('ref_axis',(-1.38777878078145E-016,1.,9.14279296285842E-017));
#192=DIRECTION('center_axis',(0.,1.,9.14279296285842E-017));
#193=DIRECTION('ref_axis',(-1.,0.,0.));
#194=DIRECTION('center_axis',(0.,1.,9.14279296285842E-017));
#195=DIRECTION('ref_axis',(-1.,0.,0.));
#196=DIRECTION('center_axis',(0.,4.73499484495604E-017,1.));
#197=DIRECTION('ref_axis',(0.,1.,0.));
#198=DIRECTION($,(1.38777878078145E-016,1.,-4.73499484495604E-017));
#199=DIRECTION($,(-1.,0.,0.));
#200=DIRECTION($,(0.,1.,-4.73499484495604E-017));
#201=DIRECTION('center_axis',(0.,2.20389905895119E-017,-1.));
#202=DIRECTION('ref_axis',(0.,-1.,0.));
#203=DIRECTION($,(0.,-1.,-2.20389905895119E-017));
#204=DIRECTION($,(-1.,0.,0.));
#205=DIRECTION($,(0.,-1.,-2.20389905895119E-017));
#206=DIRECTION('center_axis',(0.,1.,8.40802915056499E-017));
#207=DIRECTION('ref_axis',(0.,0.,-1.));
#208=DIRECTION($,(0.,-9.14279296285842E-017,1.));
#209=DIRECTION($,(0.,-9.14279296285842E-017,1.));
#210=DIRECTION('center_axis',(1.,1.38777878078145E-016,1.26881740709328E-032));
#211=DIRECTION('ref_axis',(0.,1.,0.));
#212=DIRECTION('center_axis',(-1.,1.38777878078145E-016,1.26881740709328E-032));
#213=DIRECTION('ref_axis',(0.,-1.,0.));
#214=CARTESIAN_POINT('',(0.,0.,0.));
#215=CARTESIAN_POINT('Origin',(0.,-1.94641016151377,0.85));
#216=CARTESIAN_POINT('',(0.,-1.54141016151377,-0.5));
#217=CARTESIAN_POINT('Origin',(0.,-1.94641016151377,-0.5));
#218=CARTESIAN_POINT('',(-0.400000000000002,-1.88296727381145,-2.5420000862925E-014));
#219=CARTESIAN_POINT('',(4.19409934261209E-014,-1.54141016151377,-0.4));
#220=CARTESIAN_POINT('Ctrl Pts',(-0.4,-1.88296727381152,-2.54200008629484E-014));
#221=CARTESIAN_POINT('Ctrl Pts',(-0.399999999999999,-1.88296727381151,-0.0172527746174808));
#222=CARTESIAN_POINT('Ctrl Pts',(-0.399052185143872,-1.8768991166225,-0.0302053115954759));
#223=CARTESIAN_POINT('Ctrl Pts',(-0.39640069883619,-1.86309872950938,-0.0549692702582989));
#224=CARTESIAN_POINT('Ctrl Pts',(-0.394617314476748,-1.85481789561996,-0.0664623067738243));
#225=CARTESIAN_POINT('Ctrl Pts',(-0.387677984538219,-1.82776410762094,-0.101333156264864));
#226=CARTESIAN_POINT('Ctrl Pts',(-0.381015748721918,-1.80709511413032,-0.124378018888586));
#227=CARTESIAN_POINT('Ctrl Pts',(-0.35288358175855,-1.74214340790917,-0.195050638791734));
#228=CARTESIAN_POINT('Ctrl Pts',(-0.323008250161357,-1.69573122019232,-0.242677174787881));
#229=CARTESIAN_POINT('Ctrl Pts',(-0.250826478798665,-1.62529950438429,-0.314858946150573));
#230=CARTESIAN_POINT('Ctrl Pts',(-0.208696681158191,-1.59526104360525,-0.345389503336403));
#231=CARTESIAN_POINT('Ctrl Pts',(-0.135306707232268,-1.56375384703074,-0.377364752438904));
#232=CARTESIAN_POINT('Ctrl Pts',(-0.109163385307809,-1.55542950297312,-0.385800071605482));
#233=CARTESIAN_POINT('Ctrl Pts',(-0.0552633049888398,-1.54425535651865,
-0.397120015962905));
#234=CARTESIAN_POINT('Ctrl Pts',(-0.0275046169190653,-1.54141016151377,
-0.4));
#235=CARTESIAN_POINT('Ctrl Pts',(6.59194920871187E-017,-1.54141016151377,
-0.4));
#236=CARTESIAN_POINT('',(-1.84559260020291E-016,-1.54141016151377,0.4));
#237=CARTESIAN_POINT('Ctrl Pts',(-3.29597460435593E-017,-1.54141016151377,
0.4));
#238=CARTESIAN_POINT('Ctrl Pts',(-0.0275046169190655,-1.54141016151377,
0.4));
#239=CARTESIAN_POINT('Ctrl Pts',(-0.05526330498884,-1.54425535651865,0.397120015962904));
#240=CARTESIAN_POINT('Ctrl Pts',(-0.109163385307809,-1.55542950297312,0.385800071605481));
#241=CARTESIAN_POINT('Ctrl Pts',(-0.135306707232268,-1.56375384703074,0.377364752438904));
#242=CARTESIAN_POINT('Ctrl Pts',(-0.208696681158191,-1.59526104360525,0.345389503336403));
#243=CARTESIAN_POINT('Ctrl Pts',(-0.250826478798665,-1.62529950438429,0.314858946150572));
#244=CARTESIAN_POINT('Ctrl Pts',(-0.323008250161358,-1.69573122019232,0.24267717478788));
#245=CARTESIAN_POINT('Ctrl Pts',(-0.35288358175855,-1.74214340790917,0.195050638791733));
#246=CARTESIAN_POINT('Ctrl Pts',(-0.381015748721918,-1.80709511413032,0.124378018888585));
#247=CARTESIAN_POINT('Ctrl Pts',(-0.38767798453822,-1.82776410762094,0.101333156264863));
#248=CARTESIAN_POINT('Ctrl Pts',(-0.394617314476748,-1.85481789561996,0.0664623067738233));
#249=CARTESIAN_POINT('Ctrl Pts',(-0.39640069883619,-1.86309872950938,0.0549692702582981));
#250=CARTESIAN_POINT('Ctrl Pts',(-0.399052185143872,-1.8768991166225,0.0302053115954753));
#251=CARTESIAN_POINT('Ctrl Pts',(-0.4,-1.88296727381152,0.0172527746174551));
#252=CARTESIAN_POINT('Ctrl Pts',(-0.4,-1.88296727381152,-2.98303349730037E-016));
#253=CARTESIAN_POINT('',(0.4,-1.88296727381152,-1.9331053287085E-016));
#254=CARTESIAN_POINT('Ctrl Pts',(0.4,-1.88296727381152,-2.91433543964104E-016));
#255=CARTESIAN_POINT('Ctrl Pts',(0.4,-1.88296727381152,0.0172527746174551));
#256=CARTESIAN_POINT('Ctrl Pts',(0.399052185143872,-1.8768991166225,0.0302053115954753));
#257=CARTESIAN_POINT('Ctrl Pts',(0.39640069883619,-1.86309872950938,0.0549692702582982));
#258=CARTESIAN_POINT('Ctrl Pts',(0.394617314476748,-1.85481789561996,0.0664623067738236));
#259=CARTESIAN_POINT('Ctrl Pts',(0.387677984538219,-1.82776410762094,0.101333156264863));
#260=CARTESIAN_POINT('Ctrl Pts',(0.381015748721918,-1.80709511413032,0.124378018888585));
#261=CARTESIAN_POINT('Ctrl Pts',(0.35288358175855,-1.74214340790917,0.195050638791733));
#262=CARTESIAN_POINT('Ctrl Pts',(0.323008250161358,-1.69573122019232,0.24267717478788));
#263=CARTESIAN_POINT('Ctrl Pts',(0.250826478798665,-1.62529950438429,0.314858946150572));
#264=CARTESIAN_POINT('Ctrl Pts',(0.208696681158191,-1.59526104360525,0.345389503336403));
#265=CARTESIAN_POINT('Ctrl Pts',(0.135306707232268,-1.56375384703074,0.377364752438904));
#266=CARTESIAN_POINT('Ctrl Pts',(0.109163385307809,-1.55542950297312,0.385800071605481));
#267=CARTESIAN_POINT('Ctrl Pts',(0.0552633049888398,-1.54425535651865,0.397120015962905));
#268=CARTESIAN_POINT('Ctrl Pts',(0.0275046169190654,-1.54141016151377,0.4));
#269=CARTESIAN_POINT('Ctrl Pts',(7.45931094670027E-017,-1.54141016151377,
0.4));
#270=CARTESIAN_POINT('Ctrl Pts',(-2.42861286636753E-017,-1.54141016151377,
-0.4));
#271=CARTESIAN_POINT('Ctrl Pts',(0.0275046169190653,-1.54141016151377,-0.399999999999997));
#272=CARTESIAN_POINT('Ctrl Pts',(0.0552633049888397,-1.54425535651865,-0.397120015962905));
#273=CARTESIAN_POINT('Ctrl Pts',(0.109163385307809,-1.55542950297312,-0.385800071605482));
#274=CARTESIAN_POINT('Ctrl Pts',(0.135306707232268,-1.56375384703074,-0.377364752438904));
#275=CARTESIAN_POINT('Ctrl Pts',(0.208696681158191,-1.59526104360525,-0.345389503336403));
#276=CARTESIAN_POINT('Ctrl Pts',(0.250826478798665,-1.62529950438429,-0.314858946150573));
#277=CARTESIAN_POINT('Ctrl Pts',(0.323008250161358,-1.69573122019232,-0.242677174787881));
#278=CARTESIAN_POINT('Ctrl Pts',(0.35288358175855,-1.74214340790917,-0.195050638791734));
#279=CARTESIAN_POINT('Ctrl Pts',(0.381015748721918,-1.80709511413032,-0.124378018888586));
#280=CARTESIAN_POINT('Ctrl Pts',(0.387677984538219,-1.82776410762094,-0.101333156264864));
#281=CARTESIAN_POINT('Ctrl Pts',(0.394617314476748,-1.85481789561996,-0.0664623067738243));
#282=CARTESIAN_POINT('Ctrl Pts',(0.39640069883619,-1.86309872950938,-0.0549692702582989));
#283=CARTESIAN_POINT('Ctrl Pts',(0.399052185143872,-1.8768991166225,-0.0302053115954759));
#284=CARTESIAN_POINT('Ctrl Pts',(0.4,-1.88296727381152,-0.0172527746174557));
#285=CARTESIAN_POINT('Ctrl Pts',(0.4,-1.88296727381152,-2.91433543964104E-016));
#286=CARTESIAN_POINT('',(0.,-1.54141016151377,0.5));
#287=CARTESIAN_POINT('Origin',(0.,-1.94641016151377,0.5));
#288=CARTESIAN_POINT('Origin',(0.,-1.94641016151377,-2.46519032881566E-032));
#289=CARTESIAN_POINT('',(-0.6,-2.39362375701373,0.5));
#290=CARTESIAN_POINT('',(0.6,-2.39362375701373,0.5));
#291=CARTESIAN_POINT('Origin',(0.,-1.94641016151377,0.5));
#292=CARTESIAN_POINT('',(-0.6,-2.39362375701373,-0.5));
#293=CARTESIAN_POINT('Origin',(-0.6,-1.94641016151377,-2.46519032881566E-032));
#294=CARTESIAN_POINT('',(0.6,-2.39362375701373,-0.500000000000001));
#295=CARTESIAN_POINT('Origin',(0.,-1.94641016151377,-0.5));
#296=CARTESIAN_POINT('Origin',(0.6,-1.94641016151377,-2.46519032881566E-032));
#297=CARTESIAN_POINT('Origin',(0.,-0.34641016151377,-1.57819114196578E-016));
#298=CARTESIAN_POINT('',(-0.4,-0.34641016151377,-1.57819114196578E-016));
#299=CARTESIAN_POINT('Origin',(0.,-0.34641016151377,-1.57819114196578E-016));
#300=CARTESIAN_POINT('Origin',(0.6,-2.84641016151377,-0.5));
#301=CARTESIAN_POINT('',(-0.6,-0.34641016151377,-0.500000000000001));
#302=CARTESIAN_POINT($,(-0.6,-0.34641016151377,-0.500000000000001));
#303=CARTESIAN_POINT('',(0.6,-0.34641016151377,-0.500000000000001));
#304=CARTESIAN_POINT($,(0.6,-0.34641016151377,-0.500000000000001));
#305=CARTESIAN_POINT($,(0.6,-2.84641016151377,-0.5));
#306=CARTESIAN_POINT('Origin',(0.6,-0.34641016151377,0.5));
#307=CARTESIAN_POINT('',(0.6,-0.34641016151377,0.5));
#308=CARTESIAN_POINT($,(0.6,-0.34641016151377,0.5));
#309=CARTESIAN_POINT('',(-0.6,-0.34641016151377,0.5));
#310=CARTESIAN_POINT($,(0.6,-0.34641016151377,0.5));
#311=CARTESIAN_POINT($,(-0.6,-0.34641016151377,0.5));
#312=CARTESIAN_POINT('Origin',(0.,-0.34641016151377,0.9));
#313=CARTESIAN_POINT($,(0.6,-0.34641016151377,-0.900000000000001));
#314=CARTESIAN_POINT($,(-0.6,-0.34641016151377,-0.900000000000001));
#315=CARTESIAN_POINT('Origin',(0.6,-2.84641016151377,-0.900000000000001));
#316=CARTESIAN_POINT('Origin',(-0.6,-0.34641016151377,-0.900000000000001));
#317=UNCERTAINTY_MEASURE_WITH_UNIT(LENGTH_MEASURE(0.001),#319,
'DISTANCE_ACCURACY_VALUE',
'Maximum model space distance between geometric entities at asserted c
onnectivities');
#318=(
GEOMETRIC_REPRESENTATION_CONTEXT(3)
GLOBAL_UNCERTAINTY_ASSIGNED_CONTEXT((#317))
GLOBAL_UNIT_ASSIGNED_CONTEXT((#319,#321,#320))
REPRESENTATION_CONTEXT('','3D')
);
#319=(
LENGTH_UNIT()
NAMED_UNIT(*)
SI_UNIT(.CENTI.,.METRE.)
);
#320=(
NAMED_UNIT(*)
SI_UNIT($,.STERADIAN.)
SOLID_ANGLE_UNIT()
);
#321=(
NAMED_UNIT(*)
PLANE_ANGLE_UNIT()
SI_UNIT($,.RADIAN.)
);
#322=SHAPE_DEFINITION_REPRESENTATION(#323,#324);
#323=PRODUCT_DEFINITION_SHAPE('',$,#326);
#324=SHAPE_REPRESENTATION('',(#158),#318);
#325=PRODUCT_DEFINITION_CONTEXT('3D Mechanical Parts',#329,'design');
#326=PRODUCT_DEFINITION('(Unsaved)','(Unsaved)',#327,#325);
#327=PRODUCT_DEFINITION_FORMATION('',$,#331);
#328=APPLICATION_PROTOCOL_DEFINITION('international standard',
'automotive_design',2009,#329);
#329=APPLICATION_CONTEXT(
'Core Data for Automotive Mechanical Design Process');
#330=PRODUCT_CONTEXT('3D Mechanical Parts',#329,'mechanical');
#331=PRODUCT('(Unsaved)','(Unsaved)',$,(#330));
#332=PRESENTATION_STYLE_ASSIGNMENT((#333));
#333=SURFACE_STYLE_USAGE(.BOTH.,#334);
#334=SURFACE_SIDE_STYLE($,(#335));
#335=SURFACE_STYLE_FILL_AREA(#336);
#336=FILL_AREA_STYLE($,(#337));
#337=FILL_AREA_STYLE_COLOUR($,#338);
#338=COLOUR_RGB('__RGBA_0.196078_0.196078_0.196078',0.196078431372549,0.196078431372549,
0.196078431372549);
ENDSEC;
END-ISO-10303-21;
